Tuesday, December 09, 2003
nick the... nick the... wierdo



and thid folks, is Nick...yes, I said Nick.  The dude i didnt have a picture of before....


yes, he was mad at me cause i was cameraing him...yes..yes...i mean no i will not

Posted at 10:56 am by thedissent
Comments (1)

Monday, December 08, 2003
more pictures...

that would be cameron...hes a wierd mofo
bridget  yeah..shes a cool girl!



me

and this is me with my acoustic guitar and the other one is me with my bass!

Posted at 04:10 am by thedissent
Make a comment

friends and i

this is jordan and i.  shes my only girl-friend. shes the one on the left, im on the rightjordan bridget
This is Jordan... shes so f'n pretty...jordanthis is cameron and jordan.  theyre my best friends.  so is nick, but i dont have a pic of him.. :-/cameron and jordan again...hes in love with her.. poor cameron if only he had a gf...just kiddingme and my acoustc guitar...yay!bridget acoustic

Posted at 04:02 am by thedissent
Make a comment

Saturday, December 06, 2003
my :fun: day...yeah right

well, today was just so much fun i could hardly contain myself...yeah right. i stayed home from school becasue i had a temp and my gma told me i could if i wanted to.  i wish i'd gone. i like school. yeah i know its crazy but, i do!  im a nerd..i know, you don't have to tell me.  jordan did come over after school.  shes so pretty.  i envy her.  :-P  i want garrett...

Posted at 12:51 pm by thedissent
Make a comment

guitar

guitar

Posted at 07:16 am by thedissent
Make a comment

new tabs

buahaha i found out the "lounge act" bass tabs by Nirvana.  Pretty fuckin proud of myself.

bass fig 1
g------------------------|-----------------------------|-----------------------|----------------------------
d--------4--------------|------------------------------|-----------------------|---------------------------
a------5----------------|------------------------------|----5--4--------------|----------------------------
e-7---------2----3---2-|--3-(3)  /  10-----8--7--5-|-7----------2----3--2-|--3-(3)-/-8-----7--5--3-/-

g---------------------.--------------------------..-------------------^-----.------------------------
d--------4------------.--------------------------..-------------5--7--5----.-----7------------------
a------5--------------.--------------------------..-----------------------7-.-5-------------------5-
e--/7------2---3--2--.--3-(3)-/--7----5--5--5 ..--0----5----------------.--------3------5--7----

g-----------------------.----------------------------.-----------------------.---------------------------
d-----------------------.---7------------------------.----------5---7---5---.------7-------------------
a---7---7-----------4--.-5---5---------------------.---------------------7-.--5--------------------5--
e----------5------5----.----------3---0--3--(3)-/--.--0-----5-------------.---------3------5--7------

g---------------------.-----------------------------.------------------------
d---------------------.----7--------5-------5--5--.------------------------
a---7----7---------4-.-5-------5------------------.------------------------
e-----------5---5----.---------------------------0-.-5---5--5----5--5-----

g---------------------------.--------------------.--------------------------------
d---------------------------.----7--7---7--7---.--6---6---6---5------5-/-9-\--
a---------------------------.-0-----------------.---------------------------------
e---4--4--4--3---3--3--3--.-------------------.---------------------------------

g--------------------.-------------------------.------------------.------------------------
d--------------------.----7-----5----5--5--7-.------7----7--7--.---7----5-----5--5--7-
a--7--7-----------4-.-5-----5----------------.--7-----7--------.-5----5-----------------
e--------5---5------.-------------------------.------------------.------------------------

g---------------------.---------------------.-----------------
d------7------7--7---.----7---------------.-----------------
a---7-----7----------.--5---------------5-.-----------------
e---------------------.------5-----5--7---.-----------------

g-------------.--------------.--------------.-------------.----------.---------------.
d-------------.--------------.--------------.-------------.----------.---------------.
a-------------.--------------.--------------.-------------.----------.---------------.
e-------------.--------------.--5~~~~~~.~~~~~~~.~~~~~~.~~~~~(5)~.


yeah, and thats about it, its really a pretty sweet song..I like it. :-) These are the right tabs you'll just have to figure out the timing and then you'll be set.

Here's the guitar chords...
B, G, C, B, G, C

B, G, C, B, G, C

B, G, C, A5, E, A, D5, G

E, A, D5, G, E, A, D, G

E, A, D5, G, A

G#(b5), G5, A, G#(b5), G5

E, A, D5, G, E, A, D5, G

E, A, D5, G, E, A, D5< G

E, A, D5, G, G#(b5), G5

A, G#, G5, A, G#, G5

A, G#, G5, A

yeah thats pretty much it.  i guess this dosnt belong in a blog huh? :-/ oh well :-P

(bridget)

Posted at 07:13 am by thedissent
Make a comment

posers

most of you out there are calling other people posers by what they look like/dress. this is not right.

*


*poser
n 1: a person who habitually pretends to be something he is not

*


*thats just about as simple as it gets.

*one is not a poser if they baught a $15.00 wrist band from hot topic
*brand new good charlotte shirt
*lots of black eyeliner
*black dickies\
*kickass vans
*and a bottle of black nail polish.

they are only a poser if they claim to be a punk a goth whatever they say they are. i am getting really sick and tired of people calling eachother posers. half of you have no idea what being a poser means in the first place.
* just becasue of the music that somebody listens to dose not mean they are a poser.
* just becasue of the clothes one wears does not mean they are a poser.
* just because of the friends someone has dose not mean they are a poser.
* just because somebody looks like a poser dose not mean they are a poser.

* peole are way to uptight these days. everybody is claiming to be "different" and believe it or not its to be like everybody else. my good friend jason had a thing in his profile it read ::who thought one day being different would mean being the same:: and after i read that i thought about it. it is so fuking true.
* * * * * *
i have friends of all types.
* just because some of my friends are waht you would call preppy dosnt mean im a poser.
* it dosnt mean im preppy as well trying to be somebody im not.
* and just because they ar preppy dosnt mean they are all bichy.
* just becasue somebody wears all black dosnt mean they are gothic.
* just because somebdoy has wrist bands dosnt mean they are punk. the real punks out there dont go overboard with bracelets and wristbands patches or safety pins. the peole you see with those you know arent true to what they say they are.

* somebody can listen to avril lavinge wear a korn shirt walk around the street with a skateboard in their hand and a cell phone up to their ear. would you call them a poser? * chances are you would*

* simple plan goodcharlotte avril lavinge etc are not punk if you realy truely think they are punk come talk to me and ill knock some sense into you. these bands are all over mtv running around calling themselves origional punks. they might be origional but they certionatley arent punk.

*


* if you are some of the sorry souls calling yourself hardvore punks because you listen to gc nfg b182 etc try listening to some bands that dont sworm MTV or MTV2.
* go on the internet. find bands that not many people have heard of. go download some songs. see if you like their music.
* in the mean while. try listening to some of these.

* no use for a name.
* the ramones.
* rancid.
* bouncing souls.
* nofx.

*


* find out some local bands. in your area. go to a local bar when they play.

*


* I don't wanna have to shout it out
* I don't want my hair to fall out
* I don't wanna be filled with doubt
* I don't wanna be a good boy scout
* I don't wanna have to learn to count
* I don't wanna have the biggest amount
* I don't wanna grow up

*


other sites i reccomend.
* http://www.expage.com/posermisconception
* http://www.expage.com/mosh1
* http://expage.com/converse4punks
* http://expage.com/pianarchy
* http://expage.com/kurtcobainwasmurdered

Posted at 06:39 am by thedissent
Comments (2)


I'm not like them
But I can pretend
The sun is gone
But I have a light
The day is done
But I'm having fun

I think I'm dumb
or maybe just happy
Think I'm just happy
my heart is broke
But I have some glue
help me inhale
And mend it with you
We'll float around
And hang out on clouds
Then we'll come down
And have a hangover... have a hangover

Skin the sun
Fall asleep
Wish away
The soul is cheap
Lesson learned
Wish me luck
Soothe the burn
Wake me up

I'm not like them
But I can pretend
The sun is gone
But I have a light
The day is done
But I'm having fun

I think I'm dumb
(dumb)



   

<< October 2017 >>
Sun Mon Tue Wed Thu Fri Sat
01 02 03 04 05 06 07
08 09 10 11 12 13 14
15 16 17 18 19 20 21
22 23 24 25 26 27 28
29 30 31


tis me :-D

Contact Me

If you want to be updated on this weblog Enter your email here:

blogdrive